ISO-10303-21;
HEADER;
FILE_DESCRIPTION (( 'STEP AP203' ),
    '1' );
FILE_NAME ('BK7-NPBSC-25.4-700-1000.STEP',
    '2020-12-22T02:11:25',
    ( '' ),
    ( '' ),
    'SwSTEP 2.0',
    'SolidWorks 2020',
    '' );
FILE_SCHEMA (( 'CONFIG_CONTROL_DESIGN' ));
ENDSEC;

DATA;
#1 = DIRECTION ( 'NONE',  ( 0.000000000000000000, 0.000000000000000000, 1.000000000000000000 ) ) ;
#2 = DATE_AND_TIME ( #200, #32 ) ;
#3 = VECTOR ( 'NONE', #97, 999.9999999999998863 ) ;
#4 = ADVANCED_FACE ( 'NONE', ( #129 ), #14, .T. ) ;
#5 = APPROVAL_DATE_TIME ( #7, #171 ) ;
#6 = ORIENTED_EDGE ( 'NONE', *, *, #270, .F. ) ;
#7 = DATE_AND_TIME ( #291, #219 ) ;
#8 = PERSON_AND_ORGANIZATION ( #153, #158 ) ;
#9 = VECTOR ( 'NONE', #254, 1000.000000000000114 ) ;
#10 = VERTEX_POINT ( 'NONE', #251 ) ;
#11 = PRODUCT_DEFINITION_SHAPE ( 'NONE', 'NONE',  #84 ) ;
#12 = ORIENTED_EDGE ( 'NONE', *, *, #247, .F. ) ;
#13 = VECTOR ( 'NONE', #52, 1000.000000000000000 ) ;
#14 = PLANE ( 'NONE',  #227 ) ;
#15 = EDGE_CURVE ( 'NONE', #17, #35, #88, .T. ) ;
#16 = CARTESIAN_POINT ( 'NONE',  ( 12.69999999999999574, 12.69999999999999574, -12.69999999999999929 ) ) ;
#17 = VERTEX_POINT ( 'NONE', #40 ) ;
#18 = ADVANCED_BREP_SHAPE_REPRESENTATION ( 'BK7-NPBSC-25.4-700-1000', ( #274, #272, #229 ), #252 ) ;
#19 = DIRECTION ( 'NONE',  ( -0.000000000000000000, 0.000000000000000000, 1.000000000000000000 ) ) ;
#20 = ORIENTED_EDGE ( 'NONE', *, *, #258, .T. ) ;
#21 = APPROVAL_PERSON_ORGANIZATION ( #124, #148, #123 ) ;
#22 = DIRECTION ( 'NONE',  ( 0.000000000000000000, 0.000000000000000000, -1.000000000000000000 ) ) ;
#23 = PLANE ( 'NONE',  #144 ) ;
#24 = ADVANCED_FACE ( 'NONE', ( #132 ), #231, .F. ) ;
#25 = CARTESIAN_POINT ( 'NONE',  ( 12.69999999999999929, 12.69999999999999929, -12.69999999999999929 ) ) ;
#26 = CARTESIAN_POINT ( 'NONE',  ( -12.69999999999999751, -12.69999999999999929, 12.69999999999999929 ) ) ;
#27 = DIRECTION ( 'NONE',  ( 2.220446049250312588E-16, -1.000000000000000000, 0.000000000000000000 ) ) ;
#28 = LINE ( 'NONE', #120, #89 ) ;
#29 = COORDINATED_UNIVERSAL_TIME_OFFSET ( 8, 0, .AHEAD. ) ;
#30 = CC_DESIGN_PERSON_AND_ORGANIZATION_ASSIGNMENT ( #271, #296, ( #84 ) ) ;
#31 =( NAMED_UNIT ( * ) SI_UNIT ( $, .STERADIAN. ) SOLID_ANGLE_UNIT ( ) );
#32 = LOCAL_TIME ( 10, 11, 25.00000000000000000, #56 ) ;
#33 = PERSON_AND_ORGANIZATION_ROLE ( 'design_owner' ) ;
#34 = VECTOR ( 'NONE', #210, 1000.000000000000000 ) ;
#35 = VERTEX_POINT ( 'NONE', #194 ) ;
#36 = EDGE_CURVE ( 'NONE', #257, #10, #262, .T. ) ;
#37 = CC_DESIGN_PERSON_AND_ORGANIZATION_ASSIGNMENT ( #76, #142, ( #187 ) ) ;
#38 = VECTOR ( 'NONE', #208, 1000.000000000000114 ) ;
#39 = ORIENTED_EDGE ( 'NONE', *, *, #303, .T. ) ;
#40 = CARTESIAN_POINT ( 'NONE',  ( -12.70000000000000284, 12.70000000000000284, 12.69999999999999929 ) ) ;
#41 = FACE_OUTER_BOUND ( 'NONE', #250, .T. ) ;
#42 = DIRECTION ( 'NONE',  ( -1.000000000000000000, 0.000000000000000000, 0.000000000000000000 ) ) ;
#43 = AXIS2_PLACEMENT_3D ( 'NONE', #232, #19, #54 ) ;
#44 = ORIENTED_EDGE ( 'NONE', *, *, #170, .F. ) ;
#45 = VECTOR ( 'NONE', #114, 1000.000000000000000 ) ;
#46 = CARTESIAN_POINT ( 'NONE',  ( 12.69999999999999574, 12.69999999999999574, -12.69999999999999929 ) ) ;
#47 = LINE ( 'NONE', #239, #45 ) ;
#48 = DIRECTION ( 'NONE',  ( 0.000000000000000000, 0.000000000000000000, 1.000000000000000000 ) ) ;
#49 = CARTESIAN_POINT ( 'NONE',  ( 12.69999999999999574, 12.69999999999999574, 12.69999999999999929 ) ) ;
#50 = DIRECTION ( 'NONE',  ( -0.000000000000000000, -0.000000000000000000, -1.000000000000000000 ) ) ;
#51 = CC_DESIGN_APPROVAL ( #321, ( #318 ) ) ;
#52 = DIRECTION ( 'NONE',  ( -0.000000000000000000, 1.000000000000000000, -0.000000000000000000 ) ) ;
#53 = CALENDAR_DATE ( 2020, 22, 12 ) ;
#54 = DIRECTION ( 'NONE',  ( 1.000000000000000000, 0.000000000000000000, 0.000000000000000000 ) ) ;
#55 = APPROVAL_ROLE ( '' ) ;
#56 = COORDINATED_UNIVERSAL_TIME_OFFSET ( 8, 0, .AHEAD. ) ;
#57 = CLOSED_SHELL ( 'NONE', ( #58, #175, #235, #308, #24 ) ) ;
#58 = ADVANCED_FACE ( 'NONE', ( #78 ), #243, .F. ) ;
#59 = APPROVAL_STATUS ( 'not_yet_approved' ) ;
#60 = PERSON_AND_ORGANIZATION_ROLE ( 'creator' ) ;
#61 = PRODUCT ( 'BK7-NPBSC-25.4-700-1000', 'BK7-NPBSC-25.4-700-1000', '', ( #245 ) ) ;
#62 = AXIS2_PLACEMENT_3D ( 'NONE', #160, #190, #260 ) ;
#63 = VERTEX_POINT ( 'NONE', #137 ) ;
#64 = DIRECTION ( 'NONE',  ( 0.000000000000000000, 0.000000000000000000, 1.000000000000000000 ) ) ;
#65 = CC_DESIGN_PERSON_AND_ORGANIZATION_ASSIGNMENT ( #244, #172, ( #318 ) ) ;
#66 = ORIENTED_EDGE ( 'NONE', *, *, #306, .T. ) ;
#67 = LINE ( 'NONE', #155, #110 ) ;
#68 = ORIENTED_EDGE ( 'NONE', *, *, #236, .F. ) ;
#69 = DIRECTION ( 'NONE',  ( 0.000000000000000000, 0.000000000000000000, 1.000000000000000000 ) ) ;
#70 = EDGE_LOOP ( 'NONE', ( #173, #151, #131 ) ) ;
#71 = CARTESIAN_POINT ( 'NONE',  ( 12.69999999999999929, 12.69999999999999929, 12.69999999999999929 ) ) ;
#72 = APPROVAL_PERSON_ORGANIZATION ( #99, #171, #55 ) ;
#73 = CARTESIAN_POINT ( 'NONE',  ( 12.69999999999999574, 12.69999999999999574, 12.69999999999999929 ) ) ;
#74 = LINE ( 'NONE', #166, #199 ) ;
#75 = PLANE ( 'NONE',  #220 ) ;
#76 = PERSON_AND_ORGANIZATION ( #153, #158 ) ;
#77 = CC_DESIGN_SECURITY_CLASSIFICATION ( #318, ( #187 ) ) ;
#78 = FACE_OUTER_BOUND ( 'NONE', #157, .T. ) ;
#79 = CALENDAR_DATE ( 2020, 22, 12 ) ;
#80 = APPLICATION_CONTEXT ( 'configuration controlled 3d designs of mechanical parts and assemblies' ) ;
#81 = ADVANCED_FACE ( 'NONE', ( #112 ), #23, .F. ) ;
#82 = CC_DESIGN_APPROVAL ( #148, ( #84 ) ) ;
#83 = COORDINATED_UNIVERSAL_TIME_OFFSET ( 8, 0, .AHEAD. ) ;
#84 = PRODUCT_DEFINITION ( 'UNKNOWN', '', #187, #320 ) ;
#85 = LOCAL_TIME ( 10, 11, 25.00000000000000000, #29 ) ;
#86 = ORIENTED_EDGE ( 'NONE', *, *, #181, .F. ) ;
#87 = EDGE_LOOP ( 'NONE', ( #201, #93, #177, #313 ) ) ;
#88 = LINE ( 'NONE', #179, #269 ) ;
#89 = VECTOR ( 'NONE', #217, 1000.000000000000000 ) ;
#90 = LINE ( 'NONE', #16, #3 ) ;
#91 = ORIENTED_EDGE ( 'NONE', *, *, #181, .T. ) ;
#92 = FACE_OUTER_BOUND ( 'NONE', #87, .T. ) ;
#93 = ORIENTED_EDGE ( 'NONE', *, *, #303, .F. ) ;
#94 = DIRECTION ( 'NONE',  ( 0.7071067811865474617, 0.7071067811865474617, 0.000000000000000000 ) ) ;
#95 = CARTESIAN_POINT ( 'NONE',  ( 12.69999999999999929, 12.69999999999999929, 12.69999999999999929 ) ) ;
#96 = DIRECTION ( 'NONE',  ( -0.000000000000000000, -0.000000000000000000, -1.000000000000000000 ) ) ;
#97 = DIRECTION ( 'NONE',  ( -0.7071067811865475727, -0.7071067811865475727, 0.000000000000000000 ) ) ;
#98 = PLANE ( 'NONE',  #62 ) ;
#99 = PERSON_AND_ORGANIZATION ( #153, #158 ) ;
#100 = LOCAL_TIME ( 10, 11, 25.00000000000000000, #267 ) ;
#101 = CARTESIAN_POINT ( 'NONE',  ( 12.69999999999999574, 12.69999999999999574, 12.69999999999999929 ) ) ;
#102 = EDGE_LOOP ( 'NONE', ( #68, #307, #174, #39 ) ) ;
#103 = SECURITY_CLASSIFICATION_LEVEL ( 'unclassified' ) ;
#104 = APPROVAL_STATUS ( 'not_yet_approved' ) ;
#105 = VERTEX_POINT ( 'NONE', #211 ) ;
#106 = APPROVAL_PERSON_ORGANIZATION ( #145, #321, #246 ) ;
#107 = VERTEX_POINT ( 'NONE', #209 ) ;
#108 = CC_DESIGN_PERSON_AND_ORGANIZATION_ASSIGNMENT ( #8, #33, ( #61 ) ) ;
#109 = ORIENTED_EDGE ( 'NONE', *, *, #161, .T. ) ;
#110 = VECTOR ( 'NONE', #22, 1000.000000000000000 ) ;
#111 = LINE ( 'NONE', #282, #38 ) ;
#112 = FACE_OUTER_BOUND ( 'NONE', #70, .T. ) ;
#113 = LINE ( 'NONE', #25, #9 ) ;
#114 = DIRECTION ( 'NONE',  ( 1.000000000000000000, 0.000000000000000000, 0.000000000000000000 ) ) ;
#115 = DIRECTION ( 'NONE',  ( 0.000000000000000000, 0.000000000000000000, 1.000000000000000000 ) ) ;
#116 = LOCAL_TIME ( 10, 11, 25.00000000000000000, #193 ) ;
#117 = CARTESIAN_POINT ( 'NONE',  ( 12.69999999999999574, 12.69999999999999574, 12.69999999999999929 ) ) ;
#118 = ADVANCED_FACE ( 'NONE', ( #319 ), #98, .F. ) ;
#119 = PLANE ( 'NONE',  #234 ) ;
#120 = CARTESIAN_POINT ( 'NONE',  ( -12.69999999999999574, -12.69999999999999396, -12.69999999999999929 ) ) ;
#121 = DATE_TIME_ROLE ( 'classification_date' ) ;
#122 = APPROVAL_STATUS ( 'not_yet_approved' ) ;
#123 = APPROVAL_ROLE ( '' ) ;
#124 = PERSON_AND_ORGANIZATION ( #153, #158 ) ;
#125 = ORIENTED_EDGE ( 'NONE', *, *, #216, .T. ) ;
#126 = AXIS2_PLACEMENT_3D ( 'NONE', #136, #287, #115 ) ;
#127 = ORIENTED_EDGE ( 'NONE', *, *, #270, .T. ) ;
#128 = PRODUCT_RELATED_PRODUCT_CATEGORY ( 'detail', '', ( #61 ) ) ;
#129 = FACE_OUTER_BOUND ( 'NONE', #224, .T. ) ;
#130 = AXIS2_PLACEMENT_3D ( 'NONE', #294, #266, #163 ) ;
#131 = ORIENTED_EDGE ( 'NONE', *, *, #276, .T. ) ;
#132 = FACE_OUTER_BOUND ( 'NONE', #206, .T. ) ;
#133 = PLANE ( 'NONE',  #43 ) ;
#134 = ORIENTED_EDGE ( 'NONE', *, *, #161, .F. ) ;
#135 = AXIS2_PLACEMENT_3D ( 'NONE', #159, #42, #69 ) ;
#136 = CARTESIAN_POINT ( 'NONE',  ( -12.69999999999999574, -12.69999999999999396, 12.69999999999999929 ) ) ;
#137 = CARTESIAN_POINT ( 'NONE',  ( -12.69999999999999751, -12.69999999999999929, 12.69999999999999929 ) ) ;
#138 = PLANE ( 'NONE',  #126 ) ;
#139 = CARTESIAN_POINT ( 'NONE',  ( 12.69999999999999929, 12.69999999999999929, 12.69999999999999929 ) ) ;
#140 = CARTESIAN_POINT ( 'NONE',  ( 12.69999999999999574, 12.69999999999999574, -12.69999999999999929 ) ) ;
#141 = CARTESIAN_POINT ( 'NONE',  ( -12.69999999999999751, -12.69999999999999929, 12.69999999999999929 ) ) ;
#142 = PERSON_AND_ORGANIZATION_ROLE ( 'design_supplier' ) ;
#143 =( NAMED_UNIT ( * ) PLANE_ANGLE_UNIT ( ) SI_UNIT ( $, .RADIAN. ) );
#144 = AXIS2_PLACEMENT_3D ( 'NONE', #284, #48, #214 ) ;
#145 = PERSON_AND_ORGANIZATION ( #153, #158 ) ;
#146 = ORIENTED_EDGE ( 'NONE', *, *, #170, .T. ) ;
#147 = APPROVAL_DATE_TIME ( #273, #148 ) ;
#148 = APPROVAL ( #59, 'UNSPECIFIED' ) ;
#149 = ORIENTED_EDGE ( 'NONE', *, *, #295, .T. ) ;
#150 = EDGE_CURVE ( 'NONE', #63, #105, #47, .T. ) ;
#151 = ORIENTED_EDGE ( 'NONE', *, *, #191, .T. ) ;
#152 = DIRECTION ( 'NONE',  ( -2.220446049250312588E-16, 1.000000000000000000, 0.000000000000000000 ) ) ;
#153 = PERSON ( 'UNSPECIFIED', 'UNSPECIFIED', 'UNSPECIFIED', ('UNSPECIFIED'), ('UNSPECIFIED'), ('UNSPECIFIED') ) ;
#154 = DIRECTION ( 'NONE',  ( 0.000000000000000000, 0.000000000000000000, -1.000000000000000000 ) ) ;
#155 = CARTESIAN_POINT ( 'NONE',  ( -12.69999999999999574, -12.69999999999999396, 12.69999999999999929 ) ) ;
#156 = LINE ( 'NONE', #73, #207 ) ;
#157 = EDGE_LOOP ( 'NONE', ( #66, #44, #301, #20 ) ) ;
#158 = ORGANIZATION ( 'UNSPECIFIED', 'UNSPECIFIED', '' ) ;
#159 = CARTESIAN_POINT ( 'NONE',  ( 12.69999999999999929, 12.69999999999999929, 12.69999999999999929 ) ) ;
#160 = CARTESIAN_POINT ( 'NONE',  ( 12.69999999999999574, 12.69999999999999574, 12.69999999999999929 ) ) ;
#161 = EDGE_CURVE ( 'NONE', #198, #228, #215, .T. ) ;
#162 = CARTESIAN_POINT ( 'NONE',  ( -12.69999999999999574, -12.69999999999999396, -12.69999999999999929 ) ) ;
#163 = DIRECTION ( 'NONE',  ( 1.000000000000000000, 0.000000000000000000, 0.000000000000000000 ) ) ;
#164 = APPLICATION_CONTEXT ( 'configuration controlled 3d designs of mechanical parts and assemblies' ) ;
#165 = PLANE ( 'NONE',  #135 ) ;
#166 = CARTESIAN_POINT ( 'NONE',  ( 12.69999999999999929, -12.69999999999999929, 12.69999999999999929 ) ) ;
#167 = VECTOR ( 'NONE', #180, 1000.000000000000000 ) ;
#168 = CARTESIAN_POINT ( 'NONE',  ( 0.000000000000000000, 0.000000000000000000, 0.000000000000000000 ) ) ;
#169 = PERSON_AND_ORGANIZATION ( #153, #158 ) ;
#170 = EDGE_CURVE ( 'NONE', #63, #107, #290, .T. ) ;
#171 = APPROVAL ( #104, 'UNSPECIFIED' ) ;
#172 = PERSON_AND_ORGANIZATION_ROLE ( 'classification_officer' ) ;
#173 = ORIENTED_EDGE ( 'NONE', *, *, #236, .T. ) ;
#174 = ORIENTED_EDGE ( 'NONE', *, *, #36, .T. ) ;
#175 = ADVANCED_FACE ( 'NONE', ( #288 ), #75, .F. ) ;
#176 = ORIENTED_EDGE ( 'NONE', *, *, #36, .F. ) ;
#177 = ORIENTED_EDGE ( 'NONE', *, *, #247, .T. ) ;
#178 = CC_DESIGN_DATE_AND_TIME_ASSIGNMENT ( #222, #121, ( #318 ) ) ;
#179 = CARTESIAN_POINT ( 'NONE',  ( -12.70000000000000284, 12.70000000000000284, 12.69999999999999929 ) ) ;
#180 = DIRECTION ( 'NONE',  ( -0.000000000000000000, -0.000000000000000000, -1.000000000000000000 ) ) ;
#181 = EDGE_CURVE ( 'NONE', #105, #198, #74, .T. ) ;
#182 = VERTEX_POINT ( 'NONE', #140 ) ;
#183 = LINE ( 'NONE', #256, #34 ) ;
#184 = ORIENTED_EDGE ( 'NONE', *, *, #221, .F. ) ;
#185 = LINE ( 'NONE', #139, #304 ) ;
#186 = CLOSED_SHELL ( 'NONE', ( #118, #248, #317, #4, #81 ) ) ;
#187 = PRODUCT_DEFINITION_FORMATION_WITH_SPECIFIED_SOURCE ( 'ANY', '', #61, .NOT_KNOWN. ) ;
#188 = CARTESIAN_POINT ( 'NONE',  ( 12.69999999999999929, 12.69999999999999929, -12.69999999999999929 ) ) ;
#189 = DIRECTION ( 'NONE',  ( 0.000000000000000000, 1.000000000000000000, 0.000000000000000000 ) ) ;
#190 = DIRECTION ( 'NONE',  ( -0.7071067811865475727, 0.7071067811865475727, 0.000000000000000000 ) ) ;
#191 = EDGE_CURVE ( 'NONE', #204, #35, #28, .T. ) ;
#192 = DIRECTION ( 'NONE',  ( 0.000000000000000000, 0.000000000000000000, 1.000000000000000000 ) ) ;
#193 = COORDINATED_UNIVERSAL_TIME_OFFSET ( 8, 0, .AHEAD. ) ;
#194 = CARTESIAN_POINT ( 'NONE',  ( -12.70000000000000284, 12.70000000000000284, -12.69999999999999929 ) ) ;
#195 = EDGE_CURVE ( 'NONE', #230, #63, #111, .T. ) ;
#196 = SHAPE_DEFINITION_REPRESENTATION ( #11, #18 ) ;
#197 =( LENGTH_UNIT ( ) NAMED_UNIT ( * ) SI_UNIT ( .MILLI., .METRE. ) );
#198 = VERTEX_POINT ( 'NONE', #314 ) ;
#199 = VECTOR ( 'NONE', #50, 1000.000000000000000 ) ;
#200 = CALENDAR_DATE ( 2020, 22, 12 ) ;
#201 = ORIENTED_EDGE ( 'NONE', *, *, #191, .F. ) ;
#202 = CC_DESIGN_PERSON_AND_ORGANIZATION_ASSIGNMENT ( #169, #60, ( #187 ) ) ;
#203 = ORIENTED_EDGE ( 'NONE', *, *, #15, .F. ) ;
#204 = VERTEX_POINT ( 'NONE', #162 ) ;
#205 = CARTESIAN_POINT ( 'NONE',  ( 12.69999999999999574, 12.69999999999999574, 12.69999999999999929 ) ) ;
#206 = EDGE_LOOP ( 'NONE', ( #281, #134, #6 ) ) ;
#207 = VECTOR ( 'NONE', #238, 1000.000000000000000 ) ;
#208 = DIRECTION ( 'NONE',  ( -0.7071067811865474617, -0.7071067811865474617, 0.000000000000000000 ) ) ;
#209 = CARTESIAN_POINT ( 'NONE',  ( -12.69999999999999751, -12.69999999999999929, -12.69999999999999929 ) ) ;
#210 = DIRECTION ( 'NONE',  ( 1.000000000000000000, 0.000000000000000000, 0.000000000000000000 ) ) ;
#211 = CARTESIAN_POINT ( 'NONE',  ( 12.69999999999999929, -12.69999999999999929, 12.69999999999999929 ) ) ;
#212 = VECTOR ( 'NONE', #240, 1000.000000000000000 ) ;
#213 = CARTESIAN_POINT ( 'NONE',  ( -12.69999999999999574, -12.69999999999999396, 12.69999999999999929 ) ) ;
#214 = DIRECTION ( 'NONE',  ( -2.220446049250312588E-16, 1.000000000000000000, 0.000000000000000000 ) ) ;
#215 = LINE ( 'NONE', #316, #13 ) ;
#216 = EDGE_CURVE ( 'NONE', #17, #257, #263, .T. ) ;
#217 = DIRECTION ( 'NONE',  ( -2.220446049250312588E-16, 1.000000000000000000, 0.000000000000000000 ) ) ;
#218 = APPLICATION_PROTOCOL_DEFINITION ( 'international standard', 'config_control_design', 1994, #164 ) ;
#219 = LOCAL_TIME ( 10, 11, 25.00000000000000000, #83 ) ;
#220 = AXIS2_PLACEMENT_3D ( 'NONE', #141, #189, #286 ) ;
#221 = EDGE_CURVE ( 'NONE', #105, #230, #185, .T. ) ;
#222 = DATE_AND_TIME ( #298, #85 ) ;
#223 = VECTOR ( 'NONE', #264, 999.9999999999998863 ) ;
#224 = EDGE_LOOP ( 'NONE', ( #176, #225, #12 ) ) ;
#225 = ORIENTED_EDGE ( 'NONE', *, *, #216, .F. ) ;
#226 = ORIENTED_EDGE ( 'NONE', *, *, #150, .F. ) ;
#227 = AXIS2_PLACEMENT_3D ( 'NONE', #309, #64, #152 ) ;
#228 = VERTEX_POINT ( 'NONE', #188 ) ;
#229 = AXIS2_PLACEMENT_3D ( 'NONE', #168, #192, #289 ) ;
#230 = VERTEX_POINT ( 'NONE', #71 ) ;
#231 = PLANE ( 'NONE',  #130 ) ;
#232 = CARTESIAN_POINT ( 'NONE',  ( 0.000000000000000000, 0.000000000000000000, 12.69999999999999929 ) ) ;
#233 = EDGE_LOOP ( 'NONE', ( #127, #86, #226, #146 ) ) ;
#234 = AXIS2_PLACEMENT_3D ( 'NONE', #101, #27, #1 ) ;
#235 = ADVANCED_FACE ( 'NONE', ( #261 ), #165, .F. ) ;
#236 = EDGE_CURVE ( 'NONE', #182, #204, #90, .T. ) ;
#237 = UNCERTAINTY_MEASURE_WITH_UNIT (LENGTH_MEASURE( 1.000000000000000082E-05 ), #197, 'distance_accuracy_value', 'NONE');
#238 = DIRECTION ( 'NONE',  ( 0.000000000000000000, 0.000000000000000000, -1.000000000000000000 ) ) ;
#239 = CARTESIAN_POINT ( 'NONE',  ( -12.69999999999999751, -12.69999999999999929, 12.69999999999999929 ) ) ;
#240 = DIRECTION ( 'NONE',  ( 1.000000000000000000, -2.220446049250312588E-16, 0.000000000000000000 ) ) ;
#241 = CARTESIAN_POINT ( 'NONE',  ( 12.69999999999999929, 12.69999999999999929, 12.69999999999999929 ) ) ;
#242 = VECTOR ( 'NONE', #280, 1000.000000000000000 ) ;
#243 = PLANE ( 'NONE',  #279 ) ;
#244 = PERSON_AND_ORGANIZATION ( #153, #158 ) ;
#245 = MECHANICAL_CONTEXT ( 'NONE', #80, 'mechanical' ) ;
#246 = APPROVAL_ROLE ( '' ) ;
#247 = EDGE_CURVE ( 'NONE', #10, #17, #312, .T. ) ;
#248 = ADVANCED_FACE ( 'NONE', ( #92 ), #138, .F. ) ;
#249 = DATE_AND_TIME ( #79, #116 ) ;
#250 = EDGE_LOOP ( 'NONE', ( #278, #299, #275 ) ) ;
#251 = CARTESIAN_POINT ( 'NONE',  ( -12.69999999999999574, -12.69999999999999396, 12.69999999999999929 ) ) ;
#252 =( GEOMETRIC_REPRESENTATION_CONTEXT ( 3 ) GLOBAL_UNCERTAINTY_ASSIGNED_CONTEXT ( ( #237 ) ) GLOBAL_UNIT_ASSIGNED_CONTEXT ( ( #197, #143, #31 ) ) REPRESENTATION_CONTEXT ( 'NONE', 'WORKASPACE' ) );
#253 = EDGE_LOOP ( 'NONE', ( #109, #255, #184, #91 ) ) ;
#254 = DIRECTION ( 'NONE',  ( -0.7071067811865474617, -0.7071067811865474617, 0.000000000000000000 ) ) ;
#255 = ORIENTED_EDGE ( 'NONE', *, *, #258, .F. ) ;
#256 = CARTESIAN_POINT ( 'NONE',  ( -12.69999999999999751, -12.69999999999999929, -12.69999999999999929 ) ) ;
#257 = VERTEX_POINT ( 'NONE', #205 ) ;
#258 = EDGE_CURVE ( 'NONE', #230, #228, #285, .T. ) ;
#259 = DIRECTION ( 'NONE',  ( -2.220446049250312588E-16, 1.000000000000000000, 0.000000000000000000 ) ) ;
#260 = DIRECTION ( 'NONE',  ( 0.7071067811865475727, 0.7071067811865475727, 0.000000000000000000 ) ) ;
#261 = FACE_OUTER_BOUND ( 'NONE', #253, .T. ) ;
#262 = LINE ( 'NONE', #117, #223 ) ;
#263 = LINE ( 'NONE', #49, #212 ) ;
#264 = DIRECTION ( 'NONE',  ( -0.7071067811865475727, -0.7071067811865475727, 0.000000000000000000 ) ) ;
#265 = VECTOR ( 'NONE', #259, 1000.000000000000000 ) ;
#266 = DIRECTION ( 'NONE',  ( -0.000000000000000000, 0.000000000000000000, 1.000000000000000000 ) ) ;
#267 = COORDINATED_UNIVERSAL_TIME_OFFSET ( 8, 0, .AHEAD. ) ;
#268 = DIRECTION ( 'NONE',  ( 0.7071067811865475727, -0.7071067811865475727, 0.000000000000000000 ) ) ;
#269 = VECTOR ( 'NONE', #154, 1000.000000000000000 ) ;
#270 = EDGE_CURVE ( 'NONE', #107, #198, #183, .T. ) ;
#271 = PERSON_AND_ORGANIZATION ( #153, #158 ) ;
#272 = MANIFOLD_SOLID_BREP ( '¾µÏ', #186 ) ;
#273 = DATE_AND_TIME ( #53, #100 ) ;
#274 = MANIFOLD_SOLID_BREP ( 'Í¹Ì¨-À', #57 ) ;
#275 = ORIENTED_EDGE ( 'NONE', *, *, #221, .T. ) ;
#276 = EDGE_CURVE ( 'NONE', #35, #182, #315, .T. ) ;
#277 = EDGE_LOOP ( 'NONE', ( #305, #203, #125, #149 ) ) ;
#278 = ORIENTED_EDGE ( 'NONE', *, *, #195, .T. ) ;
#279 = AXIS2_PLACEMENT_3D ( 'NONE', #241, #268, #94 ) ;
#280 = DIRECTION ( 'NONE',  ( 1.000000000000000000, -2.220446049250312588E-16, 0.000000000000000000 ) ) ;
#281 = ORIENTED_EDGE ( 'NONE', *, *, #306, .F. ) ;
#282 = CARTESIAN_POINT ( 'NONE',  ( 12.69999999999999929, 12.69999999999999929, 12.69999999999999929 ) ) ;
#283 = CC_DESIGN_DATE_AND_TIME_ASSIGNMENT ( #249, #300, ( #84 ) ) ;
#284 = CARTESIAN_POINT ( 'NONE',  ( 0.000000000000000000, 0.000000000000000000, -12.69999999999999929 ) ) ;
#285 = LINE ( 'NONE', #95, #167 ) ;
#286 = DIRECTION ( 'NONE',  ( 0.000000000000000000, -0.000000000000000000, 1.000000000000000000 ) ) ;
#287 = DIRECTION ( 'NONE',  ( 1.000000000000000000, -2.220446049250312588E-16, 0.000000000000000000 ) ) ;
#288 = FACE_OUTER_BOUND ( 'NONE', #233, .T. ) ;
#289 = DIRECTION ( 'NONE',  ( 1.000000000000000000, 0.000000000000000000, 0.000000000000000000 ) ) ;
#290 = LINE ( 'NONE', #26, #311 ) ;
#291 = CALENDAR_DATE ( 2020, 22, 12 ) ;
#292 = CC_DESIGN_APPROVAL ( #171, ( #187 ) ) ;
#293 = APPLICATION_PROTOCOL_DEFINITION ( 'international standard', 'config_control_design', 1994, #80 ) ;
#294 = CARTESIAN_POINT ( 'NONE',  ( 0.000000000000000000, 0.000000000000000000, -12.69999999999999929 ) ) ;
#295 = EDGE_CURVE ( 'NONE', #257, #182, #156, .T. ) ;
#296 = PERSON_AND_ORGANIZATION_ROLE ( 'creator' ) ;
#297 = FACE_OUTER_BOUND ( 'NONE', #277, .T. ) ;
#298 = CALENDAR_DATE ( 2020, 22, 12 ) ;
#299 = ORIENTED_EDGE ( 'NONE', *, *, #150, .T. ) ;
#300 = DATE_TIME_ROLE ( 'creation_date' ) ;
#301 = ORIENTED_EDGE ( 'NONE', *, *, #195, .F. ) ;
#302 = APPROVAL_DATE_TIME ( #2, #321 ) ;
#303 = EDGE_CURVE ( 'NONE', #10, #204, #67, .T. ) ;
#304 = VECTOR ( 'NONE', #310, 1000.000000000000000 ) ;
#305 = ORIENTED_EDGE ( 'NONE', *, *, #276, .F. ) ;
#306 = EDGE_CURVE ( 'NONE', #228, #107, #113, .T. ) ;
#307 = ORIENTED_EDGE ( 'NONE', *, *, #295, .F. ) ;
#308 = ADVANCED_FACE ( 'NONE', ( #41 ), #133, .T. ) ;
#309 = CARTESIAN_POINT ( 'NONE',  ( 0.000000000000000000, 0.000000000000000000, 12.69999999999999929 ) ) ;
#310 = DIRECTION ( 'NONE',  ( -0.000000000000000000, 1.000000000000000000, -0.000000000000000000 ) ) ;
#311 = VECTOR ( 'NONE', #96, 1000.000000000000000 ) ;
#312 = LINE ( 'NONE', #213, #265 ) ;
#313 = ORIENTED_EDGE ( 'NONE', *, *, #15, .T. ) ;
#314 = CARTESIAN_POINT ( 'NONE',  ( 12.69999999999999929, -12.69999999999999929, -12.69999999999999929 ) ) ;
#315 = LINE ( 'NONE', #46, #242 ) ;
#316 = CARTESIAN_POINT ( 'NONE',  ( 12.69999999999999929, 12.69999999999999929, -12.69999999999999929 ) ) ;
#317 = ADVANCED_FACE ( 'NONE', ( #297 ), #119, .F. ) ;
#318 = SECURITY_CLASSIFICATION ( '', '', #103 ) ;
#319 = FACE_OUTER_BOUND ( 'NONE', #102, .T. ) ;
#320 = DESIGN_CONTEXT ( 'detailed design', #164, 'design' ) ;
#321 = APPROVAL ( #122, 'UNSPECIFIED' ) ;
ENDSEC;
END-ISO-10303-21;
